Repertuarim.com | Online Repertuar
T

Yok Öyle Kararlı Şeyler - Sherlock - Tab

Kolay
  • Repertuara Ekle / Sol Paneli Aç
  • Başlat
  • e|---------------------------------------------------------------------------|
    B|---12------------------------------12-----------------------------------|
    G|-------12-14-12-11-----------------12-14-12-11-12------------|
    D|-------------------------14----------------------------------------------|
    A|---------------------------------------------------------------------------|
    E|---------------------------------------------------------------------------|


    e|---------------------------------------------------------------------------------------|
    B|-----------------12-13------------------------------13---------------------------|
    G|-------11-12------------12-14-12-11---------------12-14-12-11-12----|
    D|--14----------------------------------------14------------------------------------|
    A|-------------------------------------------------------------------------------------|
    E|--------------------------------------------------------------------------------------|



    Bu içerik rauncher tarafından eklenmiştir. Bu içerik için oy ver:
    DOĞRU YANLIŞ
    Rastgele şarkı getir!
    sherlock tab,

    yok Öyle kararlı Şeyler sherlock tab

    , yok,Öyle,kararlı,Şeyler,sherlock tabı, guitar tab, solosu, yok oyle kararli seyler sherlock ,Yok Öyle Kararlı Şeyler tabları
    Bu siteyi ziyaret ederek Gizlilik Politikamızı ve çerezleri kabul etmiş bulunuyorsunuz. (By visiting this website you are accepting our privacy policy and cookies.) Ayrıntılara bak (See details)
    Anladım