Yeni eklendi: 6. Cadde - Dönersen (orjinal ton)
Repertuarim.com | Online Repertuar
T

İlyas Yalçıntaş - Dönebilsen - Tab

Orta
  • Repertuara Ekle / Sol Paneli Aç
  • Başlat
  • Hani sevgin dokunur ruhuma, yalan aşklar anlayamaz ama
    e|---------------------------------------------------------------------------|
    B|--------------4------------------------------------------------4---------|
    G|6-5-6-5-6---5-5-6-5-------3-1-3-1-3-5-1-1-3-1-5------------|
    D|---------------------------8-6-------------------------------------------|
    A|---------------------------------------------------------------------------|
    E|---------------------------------------------------------------------------|

    Geceyi vurur yarınlar yine, sen dönebilsen
    e|---------------------------------------------------------------------------|
    B|--------------4-----------------------------------------------------------|
    G|6-5-6-5-6---5-5-6---------------------------------------------------|
    D|------------------------8-6-8-8-10-11-10-8------------------------|
    A|---------------------------------------------------------------------------|
    E|---------------------------------------------------------------------------|


    Hani sevgin dokunur ruhuma
    Yalan aşklar anlayamaz ama
    Geceyi vurur yarınlar yine
    Sen dönebilsen

    Bu içerik bbakoru tarafından eklenmiştir. Bu içerik için oy ver:
    DOĞRU YANLIŞ
    Rastgele şarkı getir!
    dönebilsen tab,

    İlyas yalçıntaş dönebilsen tab

    , İlyas,yalçıntaş,dönebilsen tabı, guitar tab, solosu, ilyas yalcintas donebilsen ,İlyas Yalçıntaş tabları
    Bu siteyi ziyaret ederek Gizlilik Politikamızı ve çerezleri kabul etmiş bulunuyorsunuz. (By visiting this website you are accepting our privacy policy and cookies.) Ayrıntılara bak (See details)
    Anladım