Repertuarim.com | Online Repertuar
T

Adamlar - Bi Öyle Bi Böyle - Tab

(ver-2) Orta
  • Repertuara Ekle / Sol Paneli Aç
  • Başlat
  • e|---------------------------------------------------------------------------|
    B|---------------------------------------------------------------------------|
    G|-5-5-7---7-8-7-5-7---1-1-3---3-4-3-1-0------------------------|
    D|---------------------------------------------------------------------------|
    A|---------------------------------------------------------------------------|
    E|---------------------------------------------------------------------------|

    e|---------------------------------------------------------------------------|
    B|------------------------------8--8-9-8-7-6-5-------------------------|
    G|-5-5-7---7-8-7-5-7--------------------------------------------------|
    D|---------------------------------------------------------------------------|
    A|---------------------------------------------------------------------------|
    E|---------------------------------------------------------------------------|

    e|---------------------------------------------------------------------------|
    B|------------------------------------------13------13-15-13-12-12--|
    G|-5-5-7---7-8-7-5-7---8-11-12--------12--------------------------|
    D|---------------------------------------------------------------------------|
    A|---------------------------------------------------------------------------|
    E|---------------------------------------------------------------------------|



    Bu içerik biology tarafından eklenmiştir. Bu içerik için oy ver:
    DOĞRU YANLIŞ
    Rastgele şarkı getir!
    bi Öyle bi böyle tab,

    adamlar bi Öyle bi böyle tab

    , adamlar,bi,Öyle,bi,böyle tabı, guitar tab, solosu, adamlar bi oyle bi boyle ,Adamlar tabları
    Bu siteyi ziyaret ederek Gizlilik Politikamızı ve çerezleri kabul etmiş bulunuyorsunuz. (By visiting this website you are accepting our privacy policy and cookies.) Ayrıntılara bak (See details)
    Anladım